ISO-10303-21;
HEADER;
FILE_DESCRIPTION (( 'STEP AP203' ),
    '1' );
FILE_NAME ('Q-QZWP-R4-20-1064-M.STEP',
    '2020-12-23T01:25:00',
    ( '' ),
    ( '' ),
    'SwSTEP 2.0',
    'SolidWorks 2020',
    '' );
FILE_SCHEMA (( 'CONFIG_CONTROL_DESIGN' ));
ENDSEC;

DATA;
#1 = DIRECTION ( 'NONE',  ( 0.000000000000000000, 0.000000000000000000, 1.000000000000000000 ) ) ;
#2 = APPROVAL ( #106, 'UNSPECIFIED' ) ;
#3 = VECTOR ( 'NONE', #116, 1000.000000000000000 ) ;
#4 = VERTEX_POINT ( 'NONE', #298 ) ;
#5 =( GEOMETRIC_REPRESENTATION_CONTEXT ( 3 ) GLOBAL_UNCERTAINTY_ASSIGNED_CONTEXT ( ( #82 ) ) GLOBAL_UNIT_ASSIGNED_CONTEXT ( ( #319, #59, #324 ) ) REPRESENTATION_CONTEXT ( 'NONE', 'WORKASPACE' ) );
#6 = FACE_OUTER_BOUND ( 'NONE', #111, .T. ) ;
#7 = CARTESIAN_POINT ( 'NONE',  ( -1.614212418857619014, 1.224646799147353256E-15, -10.00000000000000000 ) ) ;
#8 = CARTESIAN_POINT ( 'NONE',  ( -3.000000000000000000, 0.000000000000000000, 0.000000000000000000 ) ) ;
#9 = EDGE_LOOP ( 'NONE', ( #326, #90 ) ) ;
#10 = DIRECTION ( 'NONE',  ( -1.000000000000000000, -0.000000000000000000, -0.000000000000000000 ) ) ;
#11 = CARTESIAN_POINT ( 'NONE',  ( 2.500000000000000444, 10.00000000000000000, 0.000000000000000000 ) ) ;
#12 = ORIENTED_EDGE ( 'NONE', *, *, #85, .T. ) ;
#13 = PERSON_AND_ORGANIZATION_ROLE ( 'design_owner' ) ;
#14 = CYLINDRICAL_SURFACE ( 'NONE', #51, 12.69999999999999929 ) ;
#15 = ORIENTED_EDGE ( 'NONE', *, *, #29, .T. ) ;
#16 = AXIS2_PLACEMENT_3D ( 'NONE', #147, #242, #121 ) ;
#17 = APPLICATION_PROTOCOL_DEFINITION ( 'international standard', 'config_control_design', 1994, #227 ) ;
#18 = DIRECTION ( 'NONE',  ( -1.000000000000000000, 0.000000000000000000, -0.000000000000000000 ) ) ;
#19 = DATE_TIME_ROLE ( 'classification_date' ) ;
#20 = DIRECTION ( 'NONE',  ( 0.000000000000000000, 0.000000000000000000, 1.000000000000000000 ) ) ;
#21 = APPROVAL_ROLE ( '' ) ;
#22 = FACE_OUTER_BOUND ( 'NONE', #9, .T. ) ;
#23 = CC_DESIGN_SECURITY_CLASSIFICATION ( #223, ( #269 ) ) ;
#24 = APPROVAL_PERSON_ORGANIZATION ( #54, #2, #21 ) ;
#25 = PLANE ( 'NONE',  #249 ) ;
#26 = SHAPE_DEFINITION_REPRESENTATION ( #229, #262 ) ;
#27 = PRODUCT_DEFINITION ( 'UNKNOWN', '', #269, #77 ) ;
#28 = PRODUCT ( 'Q-QZWP-R4-20-1064-M', 'Q-QZWP-R4-20-1064-M', '', ( #100 ) ) ;
#29 = EDGE_CURVE ( 'NONE', #115, #260, #65, .T. ) ;
#30 = AXIS2_PLACEMENT_3D ( 'NONE', #8, #170, #165 ) ;
#31 = AXIS2_PLACEMENT_3D ( 'NONE', #196, #328, #294 ) ;
#32 = ADVANCED_FACE ( 'NONE', ( #292 ), #44, .F. ) ;
#33 = VERTEX_POINT ( 'NONE', #58 ) ;
#34 = ORIENTED_EDGE ( 'NONE', *, *, #313, .T. ) ;
#35 = DIRECTION ( 'NONE',  ( 0.000000000000000000, 0.000000000000000000, 1.000000000000000000 ) ) ;
#36 = FACE_OUTER_BOUND ( 'NONE', #235, .T. ) ;
#37 = EDGE_LOOP ( 'NONE', ( #213, #289 ) ) ;
#38 = EDGE_CURVE ( 'NONE', #119, #4, #155, .T. ) ;
#39 = DATE_AND_TIME ( #270, #332 ) ;
#40 = CARTESIAN_POINT ( 'NONE',  ( -2.500000000000000444, 0.000000000000000000, 0.000000000000000000 ) ) ;
#41 = EDGE_LOOP ( 'NONE', ( #122, #12 ) ) ;
#42 = CARTESIAN_POINT ( 'NONE',  ( -1.614212418857619014, 0.000000000000000000, 10.00000000000000000 ) ) ;
#43 = CARTESIAN_POINT ( 'NONE',  ( -3.000000000000000444, 0.000000000000000000, 10.00000000000000000 ) ) ;
#44 = CYLINDRICAL_SURFACE ( 'NONE', #283, 10.00000000000000000 ) ;
#45 = DATE_TIME_ROLE ( 'creation_date' ) ;
#46 = CARTESIAN_POINT ( 'NONE',  ( -2.500000000000000444, 0.000000000000000000, 10.00000000000000000 ) ) ;
#47 = LOCAL_TIME ( 9, 25, 0.000000000000000000, #250 ) ;
#48 = DIRECTION ( 'NONE',  ( 0.000000000000000000, 0.000000000000000000, 1.000000000000000000 ) ) ;
#49 = APPROVAL_DATE_TIME ( #195, #306 ) ;
#50 = DIRECTION ( 'NONE',  ( -1.000000000000000000, 0.000000000000000000, -0.000000000000000000 ) ) ;
#51 = AXIS2_PLACEMENT_3D ( 'NONE', #157, #137, #1 ) ;
#52 = APPROVAL_STATUS ( 'not_yet_approved' ) ;
#53 = CIRCLE ( 'NONE', #30, 12.69999999999999929 ) ;
#54 = PERSON_AND_ORGANIZATION ( #329, #237 ) ;
#55 = AXIS2_PLACEMENT_3D ( 'NONE', #293, #327, #129 ) ;
#56 = AXIS2_PLACEMENT_3D ( 'NONE', #198, #253, #305 ) ;
#57 = ORIENTED_EDGE ( 'NONE', *, *, #226, .F. ) ;
#58 = CARTESIAN_POINT ( 'NONE',  ( -3.000000000000000000, 1.555301434917138433E-15, -12.69999999999999929 ) ) ;
#59 =( NAMED_UNIT ( * ) PLANE_ANGLE_UNIT ( ) SI_UNIT ( $, .RADIAN. ) );
#60 = DIRECTION ( 'NONE',  ( 0.000000000000000000, 0.000000000000000000, 1.000000000000000000 ) ) ;
#61 = CC_DESIGN_DATE_AND_TIME_ASSIGNMENT ( #39, #45, ( #27 ) ) ;
#62 = VERTEX_POINT ( 'NONE', #128 ) ;
#63 = DIRECTION ( 'NONE',  ( 0.000000000000000000, 0.000000000000000000, 1.000000000000000000 ) ) ;
#64 = CARTESIAN_POINT ( 'NONE',  ( -1.614212418857619014, 1.224646799147353256E-15, -10.00000000000000000 ) ) ;
#65 = CIRCLE ( 'NONE', #312, 12.69999999999999929 ) ;
#66 = CC_DESIGN_PERSON_AND_ORGANIZATION_ASSIGNMENT ( #225, #334, ( #223 ) ) ;
#67 = DIRECTION ( 'NONE',  ( 0.000000000000000000, 0.000000000000000000, 1.000000000000000000 ) ) ;
#68 = CARTESIAN_POINT ( 'NONE',  ( -2.500000000000000444, 10.00000000000000000, 0.000000000000000000 ) ) ;
#69 = DIRECTION ( 'NONE',  ( 0.000000000000000000, 0.000000000000000000, -1.000000000000000000 ) ) ;
#70 = PERSON_AND_ORGANIZATION ( #329, #237 ) ;
#71 = FACE_OUTER_BOUND ( 'NONE', #263, .T. ) ;
#72 = CARTESIAN_POINT ( 'NONE',  ( -1.614212418857619014, 0.000000000000000000, 0.000000000000000000 ) ) ;
#73 = CARTESIAN_POINT ( 'NONE',  ( -3.000000000000000000, 0.000000000000000000, 0.000000000000000000 ) ) ;
#74 = DATE_AND_TIME ( #310, #180 ) ;
#75 = CC_DESIGN_DATE_AND_TIME_ASSIGNMENT ( #135, #19, ( #223 ) ) ;
#76 = PERSON_AND_ORGANIZATION ( #329, #237 ) ;
#77 = DESIGN_CONTEXT ( 'detailed design', #266, 'design' ) ;
#78 = APPROVAL_ROLE ( '' ) ;
#79 = LINE ( 'NONE', #42, #258 ) ;
#80 = AXIS2_PLACEMENT_3D ( 'NONE', #205, #120, #63 ) ;
#81 = PERSON_AND_ORGANIZATION ( #329, #237 ) ;
#82 = UNCERTAINTY_MEASURE_WITH_UNIT (LENGTH_MEASURE( 1.000000000000000082E-05 ), #319, 'distance_accuracy_value', 'NONE');
#83 = AXIS2_PLACEMENT_3D ( 'NONE', #218, #162, #236 ) ;
#84 = ORIENTED_EDGE ( 'NONE', *, *, #288, .F. ) ;
#85 = EDGE_CURVE ( 'NONE', #274, #164, #109, .T. ) ;
#86 = ORIENTED_EDGE ( 'NONE', *, *, #256, .F. ) ;
#87 = CC_DESIGN_PERSON_AND_ORGANIZATION_ASSIGNMENT ( #81, #304, ( #269 ) ) ;
#88 = ORIENTED_EDGE ( 'NONE', *, *, #232, .F. ) ;
#89 = DIRECTION ( 'NONE',  ( -1.000000000000000000, -0.000000000000000000, -0.000000000000000000 ) ) ;
#90 = ORIENTED_EDGE ( 'NONE', *, *, #226, .T. ) ;
#91 = FACE_OUTER_BOUND ( 'NONE', #37, .T. ) ;
#92 = ORIENTED_EDGE ( 'NONE', *, *, #224, .T. ) ;
#93 = FACE_OUTER_BOUND ( 'NONE', #138, .T. ) ;
#94 = CIRCLE ( 'NONE', #287, 12.69999999999999929 ) ;
#95 = DIRECTION ( 'NONE',  ( 0.000000000000000000, 0.000000000000000000, 1.000000000000000000 ) ) ;
#96 = CARTESIAN_POINT ( 'NONE',  ( 3.000000000000000000, 0.000000000000000000, 0.000000000000000000 ) ) ;
#97 = APPROVAL_ROLE ( '' ) ;
#98 = CYLINDRICAL_SURFACE ( 'NONE', #190, 10.00000000000000000 ) ;
#99 = ORIENTED_EDGE ( 'NONE', *, *, #252, .T. ) ;
#100 = MECHANICAL_CONTEXT ( 'NONE', #227, 'mechanical' ) ;
#101 = PLANE ( 'NONE',  #217 ) ;
#102 = SECURITY_CLASSIFICATION_LEVEL ( 'unclassified' ) ;
#103 = DIRECTION ( 'NONE',  ( -1.000000000000000000, -0.000000000000000000, -0.000000000000000000 ) ) ;
#104 = APPROVAL_PERSON_ORGANIZATION ( #215, #306, #97 ) ;
#105 = DIRECTION ( 'NONE',  ( 0.000000000000000000, 0.000000000000000000, -1.000000000000000000 ) ) ;
#106 = APPROVAL_STATUS ( 'not_yet_approved' ) ;
#107 = ORIENTED_EDGE ( 'NONE', *, *, #299, .T. ) ;
#108 = ORIENTED_EDGE ( 'NONE', *, *, #308, .F. ) ;
#109 = CIRCLE ( 'NONE', #83, 10.00000000000000000 ) ;
#110 = ADVANCED_FACE ( 'NONE', ( #6 ), #278, .T. ) ;
#111 = EDGE_LOOP ( 'NONE', ( #140, #99, #204, #142 ) ) ;
#112 = ORIENTED_EDGE ( 'NONE', *, *, #178, .F. ) ;
#113 = AXIS2_PLACEMENT_3D ( 'NONE', #276, #248, #118 ) ;
#114 = MANIFOLD_SOLID_BREP ( 'Ðý×', #177 ) ;
#115 = VERTEX_POINT ( 'NONE', #152 ) ;
#116 = DIRECTION ( 'NONE',  ( -1.000000000000000000, -0.000000000000000000, -0.000000000000000000 ) ) ;
#117 = EDGE_CURVE ( 'NONE', #260, #311, #302, .T. ) ;
#118 = DIRECTION ( 'NONE',  ( 0.000000000000000000, 0.000000000000000000, 1.000000000000000000 ) ) ;
#119 = VERTEX_POINT ( 'NONE', #46 ) ;
#120 = DIRECTION ( 'NONE',  ( -1.000000000000000000, -0.000000000000000000, -0.000000000000000000 ) ) ;
#121 = DIRECTION ( 'NONE',  ( 0.000000000000000000, 0.000000000000000000, 1.000000000000000000 ) ) ;
#122 = ORIENTED_EDGE ( 'NONE', *, *, #257, .T. ) ;
#123 = APPLICATION_PROTOCOL_DEFINITION ( 'international standard', 'config_control_design', 1994, #266 ) ;
#124 = AXIS2_PLACEMENT_3D ( 'NONE', #211, #264, #183 ) ;
#125 = LINE ( 'NONE', #216, #139 ) ;
#126 = EDGE_CURVE ( 'NONE', #119, #167, #125, .T. ) ;
#127 = VECTOR ( 'NONE', #103, 1000.000000000000000 ) ;
#128 = CARTESIAN_POINT ( 'NONE',  ( 2.500000000000000888, 1.224646799147353256E-15, -10.00000000000000000 ) ) ;
#129 = DIRECTION ( 'NONE',  ( 1.000000000000000000, 0.000000000000000000, 0.000000000000000000 ) ) ;
#130 = DIRECTION ( 'NONE',  ( -0.000000000000000000, 0.000000000000000000, 1.000000000000000000 ) ) ;
#131 = CC_DESIGN_PERSON_AND_ORGANIZATION_ASSIGNMENT ( #200, #220, ( #269 ) ) ;
#132 = CARTESIAN_POINT ( 'NONE',  ( -3.000000000000000444, 1.224646799147353256E-15, -10.00000000000000000 ) ) ;
#133 = COORDINATED_UNIVERSAL_TIME_OFFSET ( 8, 0, .AHEAD. ) ;
#134 = AXIS2_PLACEMENT_3D ( 'NONE', #72, #171, #48 ) ;
#135 = DATE_AND_TIME ( #156, #176 ) ;
#136 = DIRECTION ( 'NONE',  ( 1.000000000000000000, 0.000000000000000000, 0.000000000000000000 ) ) ;
#137 = DIRECTION ( 'NONE',  ( -1.000000000000000000, -0.000000000000000000, -0.000000000000000000 ) ) ;
#138 = EDGE_LOOP ( 'NONE', ( #243, #255, #228, #141 ) ) ;
#139 = VECTOR ( 'NONE', #219, 1000.000000000000000 ) ;
#140 = ORIENTED_EDGE ( 'NONE', *, *, #288, .T. ) ;
#141 = ORIENTED_EDGE ( 'NONE', *, *, #299, .F. ) ;
#142 = ORIENTED_EDGE ( 'NONE', *, *, #117, .F. ) ;
#143 = LINE ( 'NONE', #64, #197 ) ;
#144 = APPROVAL_PERSON_ORGANIZATION ( #76, #281, #78 ) ;
#145 = LOCAL_TIME ( 9, 25, 0.000000000000000000, #316 ) ;
#146 = EDGE_LOOP ( 'NONE', ( #88, #201 ) ) ;
#147 = CARTESIAN_POINT ( 'NONE',  ( 2.999999999999999112, 0.000000000000000000, 0.000000000000000000 ) ) ;
#148 = EDGE_LOOP ( 'NONE', ( #314, #15, #267, #57 ) ) ;
#149 = DIRECTION ( 'NONE',  ( 0.000000000000000000, 0.000000000000000000, -1.000000000000000000 ) ) ;
#150 = DIRECTION ( 'NONE',  ( 1.000000000000000000, 0.000000000000000000, 0.000000000000000000 ) ) ;
#151 = FACE_BOUND ( 'NONE', #41, .T. ) ;
#152 = CARTESIAN_POINT ( 'NONE',  ( 3.000000000000000000, 1.555301434917138433E-15, -12.69999999999999929 ) ) ;
#153 = CARTESIAN_POINT ( 'NONE',  ( 2.500000000000000888, 0.000000000000000000, 0.000000000000000000 ) ) ;
#154 = CC_DESIGN_PERSON_AND_ORGANIZATION_ASSIGNMENT ( #244, #13, ( #28 ) ) ;
#155 = CIRCLE ( 'NONE', #285, 10.00000000000000000 ) ;
#156 = CALENDAR_DATE ( 2020, 23, 12 ) ;
#157 = CARTESIAN_POINT ( 'NONE',  ( -1.614212418857619014, 0.000000000000000000, 0.000000000000000000 ) ) ;
#158 = ADVANCED_FACE ( 'NONE', ( #172 ), #325, .F. ) ;
#159 = AXIS2_PLACEMENT_3D ( 'NONE', #153, #251, #20 ) ;
#160 = ORIENTED_EDGE ( 'NONE', *, *, #256, .T. ) ;
#161 = ADVANCED_FACE ( 'NONE', ( #91 ), #186, .F. ) ;
#162 = DIRECTION ( 'NONE',  ( -1.000000000000000000, -0.000000000000000000, -0.000000000000000000 ) ) ;
#163 = CARTESIAN_POINT ( 'NONE',  ( -1.614212418857619014, 0.000000000000000000, 0.000000000000000000 ) ) ;
#164 = VERTEX_POINT ( 'NONE', #273 ) ;
#165 = DIRECTION ( 'NONE',  ( 0.000000000000000000, 0.000000000000000000, 1.000000000000000000 ) ) ;
#166 = CC_DESIGN_APPROVAL ( #306, ( #27 ) ) ;
#167 = VERTEX_POINT ( 'NONE', #43 ) ;
#168 = DIRECTION ( 'NONE',  ( 1.000000000000000000, 0.000000000000000000, 0.000000000000000000 ) ) ;
#169 = EDGE_LOOP ( 'NONE', ( #315, #86 ) ) ;
#170 = DIRECTION ( 'NONE',  ( -1.000000000000000000, -0.000000000000000000, -0.000000000000000000 ) ) ;
#171 = DIRECTION ( 'NONE',  ( -1.000000000000000000, -0.000000000000000000, -0.000000000000000000 ) ) ;
#172 = FACE_OUTER_BOUND ( 'NONE', #318, .T. ) ;
#173 = EDGE_CURVE ( 'NONE', #311, #33, #94, .T. ) ;
#174 = DATE_AND_TIME ( #307, #47 ) ;
#175 = CIRCLE ( 'NONE', #188, 10.00000000000000000 ) ;
#176 = LOCAL_TIME ( 9, 25, 0.000000000000000000, #133 ) ;
#177 = CLOSED_SHELL ( 'NONE', ( #110, #209, #321, #161, #32, #158, #291, #279, #203, #277 ) ) ;
#178 = EDGE_CURVE ( 'NONE', #4, #240, #143, .T. ) ;
#179 = CC_DESIGN_PERSON_AND_ORGANIZATION_ASSIGNMENT ( #70, #185, ( #27 ) ) ;
#180 = LOCAL_TIME ( 9, 25, 0.000000000000000000, #222 ) ;
#181 = CIRCLE ( 'NONE', #56, 12.69999999999999929 ) ;
#182 = ORIENTED_EDGE ( 'NONE', *, *, #126, .T. ) ;
#183 = DIRECTION ( 'NONE',  ( 0.000000000000000000, 0.000000000000000000, 1.000000000000000000 ) ) ;
#184 = CARTESIAN_POINT ( 'NONE',  ( -1.614212418857619014, 0.000000000000000000, 0.000000000000000000 ) ) ;
#185 = PERSON_AND_ORGANIZATION_ROLE ( 'creator' ) ;
#186 = PLANE ( 'NONE',  #323 ) ;
#187 = ORIENTED_EDGE ( 'NONE', *, *, #178, .T. ) ;
#188 = AXIS2_PLACEMENT_3D ( 'NONE', #247, #10, #35 ) ;
#189 = CARTESIAN_POINT ( 'NONE',  ( 2.999999999999999112, 1.224646799147353256E-15, -10.00000000000000000 ) ) ;
#190 = AXIS2_PLACEMENT_3D ( 'NONE', #163, #193, #95 ) ;
#191 = VERTEX_POINT ( 'NONE', #301 ) ;
#192 = CALENDAR_DATE ( 2020, 23, 12 ) ;
#193 = DIRECTION ( 'NONE',  ( -1.000000000000000000, -0.000000000000000000, -0.000000000000000000 ) ) ;
#194 = DIRECTION ( 'NONE',  ( -1.000000000000000000, -0.000000000000000000, -0.000000000000000000 ) ) ;
#195 = DATE_AND_TIME ( #192, #145 ) ;
#196 = CARTESIAN_POINT ( 'NONE',  ( -1.614212418857619014, 0.000000000000000000, 0.000000000000000000 ) ) ;
#197 = VECTOR ( 'NONE', #271, 1000.000000000000000 ) ;
#198 = CARTESIAN_POINT ( 'NONE',  ( 3.000000000000000000, 0.000000000000000000, 0.000000000000000000 ) ) ;
#199 = AXIS2_PLACEMENT_3D ( 'NONE', #68, #168, #149 ) ;
#200 = PERSON_AND_ORGANIZATION ( #329, #237 ) ;
#201 = ORIENTED_EDGE ( 'NONE', *, *, #313, .F. ) ;
#202 = CIRCLE ( 'NONE', #230, 10.00000000000000000 ) ;
#203 = ADVANCED_FACE ( 'NONE', ( #36, #151 ), #101, .F. ) ;
#204 = ORIENTED_EDGE ( 'NONE', *, *, #173, .F. ) ;
#205 = CARTESIAN_POINT ( 'NONE',  ( -1.614212418857619014, 0.000000000000000000, 0.000000000000000000 ) ) ;
#206 = DIRECTION ( 'NONE',  ( -1.000000000000000000, -0.000000000000000000, -0.000000000000000000 ) ) ;
#207 = CARTESIAN_POINT ( 'NONE',  ( -3.000000000000000000, 0.000000000000000000, 12.69999999999999929 ) ) ;
#208 = LINE ( 'NONE', #221, #127 ) ;
#209 = ADVANCED_FACE ( 'NONE', ( #71 ), #98, .F. ) ;
#210 = EDGE_LOOP ( 'NONE', ( #108, #233, #107, #92 ) ) ;
#211 = CARTESIAN_POINT ( 'NONE',  ( 2.500000000000000888, 0.000000000000000000, 0.000000000000000000 ) ) ;
#212 = CARTESIAN_POINT ( 'NONE',  ( 3.000000000000000000, 0.000000000000000000, 12.69999999999999929 ) ) ;
#213 = ORIENTED_EDGE ( 'NONE', *, *, #224, .F. ) ;
#214 = CIRCLE ( 'NONE', #124, 10.00000000000000000 ) ;
#215 = PERSON_AND_ORGANIZATION ( #329, #237 ) ;
#216 = CARTESIAN_POINT ( 'NONE',  ( -1.614212418857619014, 0.000000000000000000, 10.00000000000000000 ) ) ;
#217 = AXIS2_PLACEMENT_3D ( 'NONE', #239, #18, #130 ) ;
#218 = CARTESIAN_POINT ( 'NONE',  ( 2.999999999999999112, 0.000000000000000000, 0.000000000000000000 ) ) ;
#219 = DIRECTION ( 'NONE',  ( -1.000000000000000000, -0.000000000000000000, -0.000000000000000000 ) ) ;
#220 = PERSON_AND_ORGANIZATION_ROLE ( 'creator' ) ;
#221 = CARTESIAN_POINT ( 'NONE',  ( -1.614212418857619014, 1.555301434917138433E-15, -12.69999999999999929 ) ) ;
#222 = COORDINATED_UNIVERSAL_TIME_OFFSET ( 8, 0, .AHEAD. ) ;
#223 = SECURITY_CLASSIFICATION ( '', '', #102 ) ;
#224 = EDGE_CURVE ( 'NONE', #191, #62, #231, .T. ) ;
#225 = PERSON_AND_ORGANIZATION ( #329, #237 ) ;
#226 = EDGE_CURVE ( 'NONE', #33, #311, #53, .T. ) ;
#227 = APPLICATION_CONTEXT ( 'configuration controlled 3d designs of mechanical parts and assemblies' ) ;
#228 = ORIENTED_EDGE ( 'NONE', *, *, #335, .T. ) ;
#229 = PRODUCT_DEFINITION_SHAPE ( 'NONE', 'NONE',  #27 ) ;
#230 = AXIS2_PLACEMENT_3D ( 'NONE', #40, #265, #317 ) ;
#231 = CIRCLE ( 'NONE', #159, 10.00000000000000000 ) ;
#232 = EDGE_CURVE ( 'NONE', #167, #240, #259, .T. ) ;
#233 = ORIENTED_EDGE ( 'NONE', *, *, #257, .F. ) ;
#234 = PRODUCT_RELATED_PRODUCT_CATEGORY ( 'detail', '', ( #28 ) ) ;
#235 = EDGE_LOOP ( 'NONE', ( #84, #286 ) ) ;
#236 = DIRECTION ( 'NONE',  ( 0.000000000000000000, 0.000000000000000000, 1.000000000000000000 ) ) ;
#237 = ORGANIZATION ( 'UNSPECIFIED', 'UNSPECIFIED', '' ) ;
#238 = CYLINDRICAL_SURFACE ( 'NONE', #80, 10.00000000000000000 ) ;
#239 = CARTESIAN_POINT ( 'NONE',  ( 2.999999999999999112, 12.69999999999999929, 0.000000000000000000 ) ) ;
#240 = VERTEX_POINT ( 'NONE', #132 ) ;
#241 = LINE ( 'NONE', #7, #3 ) ;
#242 = DIRECTION ( 'NONE',  ( -1.000000000000000000, -0.000000000000000000, -0.000000000000000000 ) ) ;
#243 = ORIENTED_EDGE ( 'NONE', *, *, #85, .F. ) ;
#244 = PERSON_AND_ORGANIZATION ( #329, #237 ) ;
#245 = FACE_OUTER_BOUND ( 'NONE', #148, .T. ) ;
#246 = ORIENTED_EDGE ( 'NONE', *, *, #38, .T. ) ;
#247 = CARTESIAN_POINT ( 'NONE',  ( -3.000000000000000444, 0.000000000000000000, 0.000000000000000000 ) ) ;
#248 = DIRECTION ( 'NONE',  ( -1.000000000000000000, -0.000000000000000000, -0.000000000000000000 ) ) ;
#249 = AXIS2_PLACEMENT_3D ( 'NONE', #333, #136, #105 ) ;
#250 = COORDINATED_UNIVERSAL_TIME_OFFSET ( 8, 0, .AHEAD. ) ;
#251 = DIRECTION ( 'NONE',  ( -1.000000000000000000, -0.000000000000000000, -0.000000000000000000 ) ) ;
#252 = EDGE_CURVE ( 'NONE', #115, #33, #208, .T. ) ;
#253 = DIRECTION ( 'NONE',  ( -1.000000000000000000, -0.000000000000000000, -0.000000000000000000 ) ) ;
#254 = APPROVAL_DATE_TIME ( #74, #281 ) ;
#255 = ORIENTED_EDGE ( 'NONE', *, *, #308, .T. ) ;
#256 = EDGE_CURVE ( 'NONE', #4, #119, #202, .T. ) ;
#257 = EDGE_CURVE ( 'NONE', #164, #274, #309, .T. ) ;
#258 = VECTOR ( 'NONE', #89, 1000.000000000000000 ) ;
#259 = CIRCLE ( 'NONE', #113, 10.00000000000000000 ) ;
#260 = VERTEX_POINT ( 'NONE', #212 ) ;
#261 = ORIENTED_EDGE ( 'NONE', *, *, #126, .F. ) ;
#262 = ADVANCED_BREP_SHAPE_REPRESENTATION ( 'Q-QZWP-R4-20-1064-M', ( #114, #55 ), #5 ) ;
#263 = EDGE_LOOP ( 'NONE', ( #246, #187, #34, #261 ) ) ;
#264 = DIRECTION ( 'NONE',  ( -1.000000000000000000, -0.000000000000000000, -0.000000000000000000 ) ) ;
#265 = DIRECTION ( 'NONE',  ( 1.000000000000000000, 0.000000000000000000, 0.000000000000000000 ) ) ;
#266 = APPLICATION_CONTEXT ( 'configuration controlled 3d designs of mechanical parts and assemblies' ) ;
#267 = ORIENTED_EDGE ( 'NONE', *, *, #117, .T. ) ;
#268 = CC_DESIGN_APPROVAL ( #2, ( #269 ) ) ;
#269 = PRODUCT_DEFINITION_FORMATION_WITH_SPECIFIED_SOURCE ( 'ANY', '', #28, .NOT_KNOWN. ) ;
#270 = CALENDAR_DATE ( 2020, 23, 12 ) ;
#271 = DIRECTION ( 'NONE',  ( -1.000000000000000000, -0.000000000000000000, -0.000000000000000000 ) ) ;
#272 = CARTESIAN_POINT ( 'NONE',  ( -2.500000000000000444, 0.000000000000000000, 0.000000000000000000 ) ) ;
#273 = CARTESIAN_POINT ( 'NONE',  ( 2.999999999999999112, 0.000000000000000000, 10.00000000000000000 ) ) ;
#274 = VERTEX_POINT ( 'NONE', #189 ) ;
#275 = COORDINATED_UNIVERSAL_TIME_OFFSET ( 8, 0, .AHEAD. ) ;
#276 = CARTESIAN_POINT ( 'NONE',  ( -3.000000000000000444, 0.000000000000000000, 0.000000000000000000 ) ) ;
#277 = ADVANCED_FACE ( 'NONE', ( #320 ), #297, .F. ) ;
#278 = CYLINDRICAL_SURFACE ( 'NONE', #134, 12.69999999999999929 ) ;
#279 = ADVANCED_FACE ( 'NONE', ( #245 ), #14, .T. ) ;
#280 = DIRECTION ( 'NONE',  ( -0.000000000000000000, 0.000000000000000000, 1.000000000000000000 ) ) ;
#281 = APPROVAL ( #52, 'UNSPECIFIED' ) ;
#282 = APPROVAL_DATE_TIME ( #174, #2 ) ;
#283 = AXIS2_PLACEMENT_3D ( 'NONE', #184, #206, #67 ) ;
#284 = FACE_BOUND ( 'NONE', #146, .T. ) ;
#285 = AXIS2_PLACEMENT_3D ( 'NONE', #272, #150, #69 ) ;
#286 = ORIENTED_EDGE ( 'NONE', *, *, #29, .F. ) ;
#287 = AXIS2_PLACEMENT_3D ( 'NONE', #73, #290, #60 ) ;
#288 = EDGE_CURVE ( 'NONE', #260, #115, #181, .T. ) ;
#289 = ORIENTED_EDGE ( 'NONE', *, *, #335, .F. ) ;
#290 = DIRECTION ( 'NONE',  ( -1.000000000000000000, -0.000000000000000000, -0.000000000000000000 ) ) ;
#291 = ADVANCED_FACE ( 'NONE', ( #284, #22 ), #25, .F. ) ;
#292 = FACE_OUTER_BOUND ( 'NONE', #210, .T. ) ;
#293 = CARTESIAN_POINT ( 'NONE',  ( 0.000000000000000000, 0.000000000000000000, 0.000000000000000000 ) ) ;
#294 = DIRECTION ( 'NONE',  ( 0.000000000000000000, 0.000000000000000000, 1.000000000000000000 ) ) ;
#295 = DIRECTION ( 'NONE',  ( 0.000000000000000000, 0.000000000000000000, 1.000000000000000000 ) ) ;
#296 = VECTOR ( 'NONE', #303, 1000.000000000000000 ) ;
#297 = PLANE ( 'NONE',  #199 ) ;
#298 = CARTESIAN_POINT ( 'NONE',  ( -2.500000000000000444, 1.224646799147353256E-15, -10.00000000000000000 ) ) ;
#299 = EDGE_CURVE ( 'NONE', #164, #191, #79, .T. ) ;
#300 = APPROVAL_STATUS ( 'not_yet_approved' ) ;
#301 = CARTESIAN_POINT ( 'NONE',  ( 2.500000000000000888, 0.000000000000000000, 10.00000000000000000 ) ) ;
#302 = LINE ( 'NONE', #330, #296 ) ;
#303 = DIRECTION ( 'NONE',  ( -1.000000000000000000, -0.000000000000000000, -0.000000000000000000 ) ) ;
#304 = PERSON_AND_ORGANIZATION_ROLE ( 'design_supplier' ) ;
#305 = DIRECTION ( 'NONE',  ( 0.000000000000000000, 0.000000000000000000, 1.000000000000000000 ) ) ;
#306 = APPROVAL ( #300, 'UNSPECIFIED' ) ;
#307 = CALENDAR_DATE ( 2020, 23, 12 ) ;
#308 = EDGE_CURVE ( 'NONE', #274, #62, #241, .T. ) ;
#309 = CIRCLE ( 'NONE', #16, 10.00000000000000000 ) ;
#310 = CALENDAR_DATE ( 2020, 23, 12 ) ;
#311 = VERTEX_POINT ( 'NONE', #207 ) ;
#312 = AXIS2_PLACEMENT_3D ( 'NONE', #96, #194, #295 ) ;
#313 = EDGE_CURVE ( 'NONE', #240, #167, #175, .T. ) ;
#314 = ORIENTED_EDGE ( 'NONE', *, *, #252, .F. ) ;
#315 = ORIENTED_EDGE ( 'NONE', *, *, #38, .F. ) ;
#316 = COORDINATED_UNIVERSAL_TIME_OFFSET ( 8, 0, .AHEAD. ) ;
#317 = DIRECTION ( 'NONE',  ( 0.000000000000000000, 0.000000000000000000, -1.000000000000000000 ) ) ;
#318 = EDGE_LOOP ( 'NONE', ( #112, #160, #182, #322 ) ) ;
#319 =( LENGTH_UNIT ( ) NAMED_UNIT ( * ) SI_UNIT ( .MILLI., .METRE. ) );
#320 = FACE_OUTER_BOUND ( 'NONE', #169, .T. ) ;
#321 = ADVANCED_FACE ( 'NONE', ( #93 ), #238, .F. ) ;
#322 = ORIENTED_EDGE ( 'NONE', *, *, #232, .T. ) ;
#323 = AXIS2_PLACEMENT_3D ( 'NONE', #11, #50, #280 ) ;
#324 =( NAMED_UNIT ( * ) SI_UNIT ( $, .STERADIAN. ) SOLID_ANGLE_UNIT ( ) );
#325 = CYLINDRICAL_SURFACE ( 'NONE', #31, 10.00000000000000000 ) ;
#326 = ORIENTED_EDGE ( 'NONE', *, *, #173, .T. ) ;
#327 = DIRECTION ( 'NONE',  ( 0.000000000000000000, 0.000000000000000000, 1.000000000000000000 ) ) ;
#328 = DIRECTION ( 'NONE',  ( -1.000000000000000000, -0.000000000000000000, -0.000000000000000000 ) ) ;
#329 = PERSON ( 'UNSPECIFIED', 'UNSPECIFIED', 'UNSPECIFIED', ('UNSPECIFIED'), ('UNSPECIFIED'), ('UNSPECIFIED') ) ;
#330 = CARTESIAN_POINT ( 'NONE',  ( -1.614212418857619014, 0.000000000000000000, 12.69999999999999929 ) ) ;
#331 = CC_DESIGN_APPROVAL ( #281, ( #223 ) ) ;
#332 = LOCAL_TIME ( 9, 25, 0.000000000000000000, #275 ) ;
#333 = CARTESIAN_POINT ( 'NONE',  ( -3.000000000000000000, 10.00000000000000000, 0.000000000000000000 ) ) ;
#334 = PERSON_AND_ORGANIZATION_ROLE ( 'classification_officer' ) ;
#335 = EDGE_CURVE ( 'NONE', #62, #191, #214, .T. ) ;
ENDSEC;
END-ISO-10303-21;
